Good News for Guitar Artists

Dear Guitar Artists/Fan Hindi Guitar Chords now open for all any body can post their chords (subject to accuracy/screening) on our blog......... and contribute to the world of music lovers and guitar players in 3 easy steps... Picture of the Sender will be posted on the end of the Post.....!!!

Prodecure:

1. Write you Chords on MS Word format.
2. Mail the file to ashk_sharma@yahoo.com as attachment.
3. Name, Singer, Movie/Album should be written as heading in the file.

and last but not least, do not forget to paste your pic(if you would like to show your pic at the end of the post)

thats it guys!!

we are continuously working on the improvement of this blog, hope you would like it.....................your precious comments will appreciate us!!! so please comment on the posts......!!!

Badalon Ki Gehrai

Song Title: Badalon Ki Gehrai
Movie Name: Lucky Ali
Guitar Chords:

INTRO:
------
For intro below, hold Dm chord and then play
E |------------------------------|
A |------------------------------|
D |--0---------------------------|
G |----2----2----2----2--2-------|
B |-----------------3----3--3-2--|
E |-------1----0---------1-------|


CHORDS:
-------
Dm C Bb A
Baadlon ki gehrai may sochay kya huzoor

Dm C
Oonchay oonchay chehray hay

Bb A
Zameen say kitnay door

Dm C Bb A
Aahen bharti hay ye thhandi hawa

Dm C Bb A
Aisay rangeen raho may ab humko kya hua

Chaand say taron ka hay aapas ka fasla
Beech may ye gehna hai ye gehna duniya
Is duniya ko kehtay majboor
Mita diya khud hasti ko
Ye hay kiska kasoor


Dm C
Tamanna hay yahi ki aisay yoon kabhi

Bb A
Hum basaye koi naya jaha

Dm C
Aashna ho ye dil pyar kay kaabil

Bb A
Saaz aisi bhi ho sunay jahan

Dm C
Musafir ko milay raasta

Dm A
Zamanay ko milay vaasta

Kaisay kaisay parvaano ki baatay mashhoor
Jaisay ye nazaranay hay waisay hay ye surur
Hay yakin dil may subah aayegi zaroor
Mitega ye andhera hoga har ik shay may noor

Pyar karte idhar
Yaar bantay idhar
Daastanay sifar suno jahan
Ye bhi honge khaffa
Kya pata kya gila
Har kadam pe milay koi naya
Musafir ko...


Outro:

E||--------------------|--------------------|----------------------|
B||--------------------|------------2----3--|--2-------------------|
G||-----------------0--|--2----3------------|-------3--------0-----|
D||--0----2----3-------|--------------------|------------3-----3-2-|
A||--------------------|--------------------|----------------------|
E||--------------------|--------------------|----------------------|



E||--------------|--------------|----------------------------------|
B||--------------|--------2--3--|--2-----2-------------------------|
G||-----------0--|--2--3--------|-----3-----3--2--0------0---------|
D||--0--2--3-----|--------------|---------------------3-----3----2-|
A||--------------|--------------|----------------------------------|
E||--------------|--------------|----------------------------------|

2 comments:

Post a Comment

Share

Twitter Delicious Facebook Digg Stumbleupon Favorites More